Lyrics Burger

Offspring - Americana guitar tab

Guitar 1 is in dropped D tuning
// = pick slide

Intro A (Guitar 1)
e----------------------------------------------------------
B----------------------------------------------------------
G----------------------------------------------------------
D----------------------------------------------------------
A----------------------------------------------------------
D--5^----7^----7-5--2----0--2-2----------------------------

Intro B (Guitar 2)
e----------------------------------------------------------
B----------------------------------------------------------
G----------------7-7--7-7-7-7--9--9--9-9-9--9-9-9-9--9-9-9-
D--5-5--5-5-5-5--7-7--7-7-7-7--9--9--9-9-9--9-9-9-9--9-9-9-
A--5-5--5-5-5-5--5-5--5-5-5-5--7--7--7-7-7--7-7-7-7--7-7-7-
E--3-3--3-3-3-3--------------------------------------------

Verse
e----|-----------------------------------------------------
B----|-----------------------------------------------------
G----|--------------12--14--12--------------12--14--12-----
D-//-|--14--12--14--12--14--12--14--12--14--12--14--12---2-
A-//-|--14--12--14--10--12--10--14--12--14--10--12--10---2-
E----|--12--10--12--------------12--10--12---------------0-
("Well I'd like to tell you...")

Pre-Chorus 
e----------------------------------------------------------
B----------------------------------------------------------
G-----------------------------------------5-5-5-5--7-7-7-7-
D--2-2-2-2-2-2--5-5-5-5-5-5--7-7-7-7-7-7--5-5-5-5--7-7-7-7-
A--2-2-2-2-2-2--5-5-5-5-5-5--7-7-7-7-7-7--3-3-3-3--5-5-5-5-
E--0-0-0-0-0-0--3-3-3-3-3-3--5-5-5-5-5-5-------------------
   |-----------palm muted---------------|
("My cultures defined...")

(continued)
e----------------------------------------------------------
B----------------------------------------------------------
G--9-9-9-9-9-9---------------------------12--14--12--------
D--9-9-9-9-9-9--9-9-9-9-9-9--14--12--14--12--14--12--14----
A--7-7-7-7-7-7--9-9-9-9-9-9--14--12--14--10--12--10--14----
E---------------7-7-7-7-7-7--12--10--12--------------12----

Chorus
e-----|----------------------------------------------------
B-----|----------------------------------------------------
G-----|----------7-7--7--9-9--9-----------------7-7--7-----
D-----|--5-5--5--7-7--7--9-9--9--9--10--5-5--5--7-7--7-----
A-----|--5-5--5--5-5--5--7-7--7--9--10--5-5--5--5-5--5-----
E-12\-|--3-3--3------------------7---8--3-3--3-------------
("Waaoo...waaaooo...") 

(continued)
e----------------------------------------------------------
B----------------------------------------------------------
G--9-9--7--9-9-9-------------------------------------------
D--9-9--7--9-9-9-------------------------------------------
A--7-7--5--7-7-7-------------------------------------------
E----------------------------------------------------------

Post-Chorus
e----------------------------------------------------------
B----------------------------------------------------------
G--12-12-12-12--7-7-7-7--9-9-9-9-9-9-9-9-9/----------------
D--12-12-12-12--7-7-7-7--9-9-9-9-9-9-9-9-9/----------------
A--10-10-10-10--5-5-5-5--7-7-7-7-7-7-7-7-7/----------------
E----------------------------------------------------------
("Yeah it's all coming true...")

Fill
e----------------------------------------------------------
B----------------------------------------------------------
G--7--9---7--9---------------------------------------------
D--7--9---7--9---------------------------------------------
A--5--7---5--7---------------------------------------------
E----------------------------------------------------------

Bridge
e----------------------------------------------------------
B----------------------------------------------------------
G----------8-8--8--10-10--10------------------8-8--8-------
D--6-6--6--8-8--8--10-10--10--10--11--6-6--6--8-8--8-------
A--6-6--6--6-6--6---8--8---8--10--11--6-6--6--6-6--6-------
E--4-4--4----------------------8---9--4-4--4---------------

(continued)
e----------------------------------------------------------
B----------------------------------------------------------
G--10-10--8--10-10-10--------------------------------------
D--10-10--8--10-10-10--------------------------------------
A---8--8--6---8--8--8--------------------------------------
E----------------------------------------------------------

Outro
e----------------------------------------------------------
B----------------------------------------------------------
G--13-13--13--8-8--8--10-10-10-10-10-10-10-10--------------
D--13-13--13--8-8--8--10-10-10-10-10-10-10-10--------------
A--11-11--11--6-6--6---8--8--8--8--8--8--8--8--------------
E----------------------------------------------------------



Other Offspring songs

Smash guitar tab
Americana guitar tab
Vultures guitar tab