Lyrics Burger

Offspring - Americana guitar tab

intro (played 8x by Guitar 1)

|---------------||----------------||-----------------||----------------|
|---------------||----------------||-----------------||----------------|
|---------------||----------------||-----------------||----------------|
|---------------||----------------||-----------------||----------------|
|---------------||----------------||-----------------||----------------|
|5*-------------||7b*-----------7-||-5-2-----------0-||-2-2------------|

back-up riff (guitar 2 plays this 4x after guitar 1 plays above 4x)

|---------------||----------------||-----------------||----------------|
|---------------||----------------||-----------------||----------------|
|---------------||----------------||-----------------||----------------|
|---------------||----------------||-----------------||----------------|
|-5--5--5-5-5-5-||-7-7-7-7--7-7-7-||-5-2-2-2-2-2-2-0-||-2-2-2-5---0-2--|
|-5--5--5-5-5-5-||-7-7-7-7--7-7-7-||-5-2-2-2-2-2-2-0-||-2-2-2-5---0-2--|
PM.....................................................................

"well I'd like to tell you all about my dream....
|----------------|
|----------------|
|----------------|
|-2*-------------|
|-2*-------------|
|-2*-------------|

"it's a place..."
|---------------|
|----------12/0-|
|---------------|
|---------------|
|---------------|
|---------------|

|---------------------------||---------------------------|	
|---------------------------||---------------------------|
|-9--7--9--12--12-14--14-12-||-9--7--9--12--12-14--14-12-|
|-9--7--9--12--12-14--14-12-||-9--7--9--12--12-14--14-12-|
|-7--5--7--10--10-12--12-10-||-7--5--7--10--10-12--12-10-|
|---------------------------||---------------------------|
"where strip malls abound and diversion's mere moments away..."

|----------------|
|----------------|
|----------------|
|-2*-------------|
|-2*-------------|
|-2*-------------|

|---------------------------||---------------------------|	
|---------------------------||---------------------------|
|-9--7--9--12--12-14--14-12-||-9--7--9--12--12-14--14-12-|
|-9--7--9--12--12-14--14-12-||-9--7--9--12--12-14--14-12-|
|-7--5--7--10--10-12--12-10-||-7--5--7--10--10-12--12-10-|
|---------------------------||---------------------------|

"where culture's defined by the ones least refined..."
|---------------------||---------------------|
|---------------------||---------------------|
|---------------------||---------------------|
|-2--2--2--2--2-2-2-2-||-5--5--5--5--5-5-5-5-|
|-2--2--2--2--2-2-2-2-||-5--5--5--5--5-5-5-5-|
|-2--2--2--2--2-2-2-2-||-5--5--5--5--5-5-5-5-|
PM............................................

"and you'll be left behind if you don't fit in..."
|---------------------||------------------------|
|---------------------||------------------------|
|---------------------||-5--5--5--5--7--7--7--7-|
|-7--7--7--7--7-7-7-7-||-5--5--5--5--7--7--7--7-|
|-7--7--7--7--7-7-7-7-||-3--3--3--3--5--5--5--5-|
|-7--7--7--7--7-7-7-7-||------------------------|
PM....................

"it's all distorted in americana my way...."
|---------------------||---------------------|
|---------------------||---------------------|
|-9--9--9--9--9-9-9-9-||---------------------|
|-9--9--9--9--9-9-9-9-||-9--9--9--9--9-9-9-9-|
|-7--7--7--7--7-7-7-7-||-9--9--9--9--9-9-9-9-|
|---------------------||-9--9--9--9--9-9-9-9-|
	
       				        "well f**k you!..."
|---------------------------||---------------------------|
|---------------------------||---------------------------|
|-9--7--9--12--12-14--14-12-||-9-------------------------|
|-9--7--9--12--12-14--14-12-||-9-------------------------|
|-7--5--7--10--10-12--12-10-||-7-------------------------|
|---------------------------||---------------------------|

"whoa-oh-oh.."                  "whoa-oh-oh..."
|-----------------------------||-----------------------------|
|-----------------------------||-----------------------------|
|---------------7--7-7--7-7-7-||-9--9-9--9-9-9-4--4-5--5-5-5-|
|-5--5-5--5-5-5-7--7-7--7-7-7-||-9--9-9--9-9-9-4--4-5--5-5-5-|
|-5--5-5--5-5-5-5--5-5--5-5-5-||-7--7-7--7-7-7-2--2-3--3-3-3-|
|-5--5-5--5-5-5---------------||-----------------------------|

"whoa-oh-oh.."                 "well my dream has come true.."
|-----------------------------||-----------------------------|
|-----------------------------||-----------------------------|
|---------------7--7-7--7-7-7-||-9--9-9--9-9-9-7--7-9--9-9-9-|
|-5--5-5--5-5-5-7--7-7--7-7-7-||-9--9-9--9-9-9-7--7-9--9-9-9-|
|-5--5-5--5-5-5-5--5-5--5-5-5-||-7--7-7--7-7-7-5--5-7--7-7-7-|
|-5--5-5--5-5-5---------------||-----------------------------|

"whoa-oh-oh.."                  "whoa-oh-oh..."
|-----------------------------||-----------------------------|
|-----------------------------||-----------------------------|
|---------------7--7-7--7-7-7-||-9--9-9--9-9-9-4--4-5--5-5-5-|
|-5--5-5--5-5-5-7--7-7--7-7-7-||-9--9-9--9-9-9-4--4-5--5-5-5-|
|-5--5-5--5-5-5-5--5-5--5-5-5-||-7--7-7--7-7-7-2--2-3--3-3-3-|
|-5--5-5--5-5-5---------------||-----------------------------|

"whoa-oh-oh.."                 "my vision has come true..."
|-----------------------------||-----------------------------|
|-----------------------------||-----------------------------|
|---------------7--7-7--7-7-7-||-9--9-9--9-9-9-7--7-9--9-9-9-|
|-5--5-5--5-5-5-7--7-7--7-7-7-||-9--9-9--9-9-9-7--7-9--9-9-9-|
|-5--5-5--5-5-5-5--5-5--5-5-5-||-7--7-7--7-7-7-5--5-7--7-7-7-|
|-5--5-5--5-5-5---------------||-----------------------------|

"now give me my cable, fast food, four-by's, tat's right away"
|---------------------------||---------------------------|
|---------------------------||----------------------12/0-|
|-9-------------------------||---------------------------|
|-9-------------------------||---------------------------|
|-7-------------------------||---------------------------|
|---------------------------||---------------------------|

|---------------------------||---------------------------|	
|---------------------------||---------------------------|
|-9--7--9--12--12-14--14-12-||-9--7--9--12--12-14--14-12-|
|-9--7--9--12--12-14--14-12-||-9--7--9--12--12-14--14-12-|
|-7--5--7--10--10-12--12-10-||-7--5--7--10--10-12--12-10-|
|---------------------------||---------------------------|

"i want it right now cause my generation don't like to wait..."
|----------------|
|----------------|
|----------------|
|-2*-------------|
|-2*-------------|
|-2*-------------|

|---------------------------||---------------------------|	
|---------------------------||---------------------------|
|-9--7--9--12--12-14--14-12-||-9--7--9--12--12-14--14-12-|
|-9--7--9--12--12-14--14-12-||-9--7--9--12--12-14--14-12-|
|-7--5--7--10--10-12--12-10-||-7--5--7--10--10-12--12-10-|
|---------------------------||---------------------------|

"my future's determined by theives, thugs and vermin..."
|---------------------||---------------------|
|---------------------||---------------------|
|---------------------||---------------------|
|-2--2--2--2--2-2-2-2-||-5--5--5--5--5-5-5-5-|
|-2--2--2--2--2-2-2-2-||-5--5--5--5--5-5-5-5-|
|-2--2--2--2--2-2-2-2-||-5--5--5--5--5-5-5-5-|
PM............................................

"it's quite an excursion but it's okay..."
|---------------------||------------------------|
|---------------------||------------------------|
|---------------------||-5--5--5--5--7--7--7--7-|
|-7--7--7--7--7-7-7-7-||-5--5--5--5--7--7--7--7-|
|-7--7--7--7--7-7-7-7-||-3--3--3--3--5--5--5--5-|
|-7--7--7--7--7-7-7-7-||------------------------|
PM....................

"everything"s backwards in americana my way...."
|---------------------||---------------------|
|---------------------||---------------------|
|-9--9--9--9--9-9-9-9-||---------------------|
|-9--9--9--9--9-9-9-9-||-9--9--9--9--9-9-9-9-|
|-7--7--7--7--7-7-7-7-||-9--9--9--9--9-9-9-9-|
|---------------------||-9--9--9--9--9-9-9-9-|

					  "well f**k you!..."
|---------------------------||---------------------------|
|---------------------------||---------------------------|
|-9--7--9--12--12-14--14-12-||-9-------------------------|
|-9--7--9--12--12-14--14-12-||-9-------------------------|
|-7--5--7--10--10-12--12-10-||-7-------------------------|
|---------------------------||---------------------------|

"whoa-oh-oh.."                  "whoa-oh-oh..."
|-----------------------------||-----------------------------|
|-----------------------------||-----------------------------|
|---------------7--7-7--7-7-7-||-9--9-9--9-9-9-4--4-5--5-5-5-|
|-5--5-5--5-5-5-7--7-7--7-7-7-||-9--9-9--9-9-9-4--4-5--5-5-5-|
|-5--5-5--5-5-5-5--5-5--5-5-5-||-7--7-7--7-7-7-2--2-3--3-3-3-|
|-5--5-5--5-5-5---------------||-----------------------------|

"whoa-oh-oh.."                 "well my dream has come true.."
|-----------------------------||-----------------------------|
|-----------------------------||-----------------------------|
|---------------7--7-7--7-7-7-||-9--9-9--9-9-9-7--7-9--9-9-9-|
|-5--5-5--5-5-5-7--7-7--7-7-7-||-9--9-9--9-9-9-7--7-9--9-9-9-|
|-5--5-5--5-5-5-5--5-5--5-5-5-||-7--7-7--7-7-7-5--5-7--7-7-7-|
|-5--5-5--5-5-5---------------||-----------------------------|

"whoa-oh-oh.."                  "whoa-oh-oh..."
|-----------------------------||-----------------------------|
|-----------------------------||-----------------------------|
|---------------7--7-7--7-7-7-||-9--9-9--9-9-9-4--4-5--5-5-5-|
|-5--5-5--5-5-5-7--7-7--7-7-7-||-9--9-9--9-9-9-4--4-5--5-5-5-|
|-5--5-5--5-5-5-5--5-5--5-5-5-||-7--7-7--7-7-7-2--2-3--3-3-3-|
|-5--5-5--5-5-5---------------||-----------------------------|

"whoa-oh-oh.."                 "my vision has come true..."
|-----------------------------||-----------------------------|
|-----------------------------||-----------------------------|
|---------------7--7-7--7-7-7-||-9--9-9--9-9-9-7--7-9--9-9-9-|
|-5--5-5--5-5-5-7--7-7--7-7-7-||-9--9-9--9-9-9-7--7-9--9-9-9-|
|-5--5-5--5-5-5-5--5-5--5-5-5-||-7--7-7--7-7-7-5--5-7--7-7-7-|
|-5--5-5--5-5-5---------------||-----------------------------|

"yeah, it's all coming through..."
|-----------------------------------||------------------------------|
|-----------------------------------||------------------------------|
|-12--12-12--12-12-12-7--7-7--7-7-7-||-9--9-9--9-9-9--9--9-9--9-9-9-|
|-12--12-12--12-12-12-7--7-7--7-7-7-||-9--9-9--9-9-9--9--9-9--9-9-9-|
|-10--10-10--10-10-10-5--5-5--5-5-5-||-9--9-9--9-9-9--9--9-9--9-9-9-|
|-----------------------------------||------------------------------|
      "I'm a product..."        "of my enviroment..."				
|---------------------------||---------------------------|
|---------------------------||---------------------------|
|-9-----------------------7-||-9-----------------------7-|
|-9-----------------------7-||-9-----------------------7-|
|-7-----------------------5-||-7-----------------------5-|
|---------------------------||---------------------------|
    

     "so don't blame me i just work here but i wanna..."
|---------------------------||---------------------------|
|---------------------------||----------------------12/0-|
|-9-------------------------||---------------------------|
|-9-------------------------||---------------------------|
|-7-------------------------||---------------------------|
|---------------------------||---------------------------|

|---------------------------||---------------------------|	
|---------------------------||---------------------------|
|-9--7--9--12--12-14--14-12-||-9--7--9--12--12-14--14-12-|
|-9--7--9--12--12-14--14-12-||-9--7--9--12--12-14--14-12-|
|-7--5--7--10--10-12--12-10-||-7--5--7--10--10-12--12-10-|
|---------------------------||---------------------------|

|---------------------------||---------------------------|	
|---------------------------||---------------------------|
|-9--7--9--12--12-14--14-12-||-9--7--9--12--12-14--14-12-|
|-9--7--9--12--12-14--14-12-||-9--7--9--12--12-14--14-12-|
|-7--5--7--10--10-12--12-10-||-7--5--7--10--10-12--12-10-|
|---------------------------||---------------------------|

"my rights are denied by those least qualified..."
|---------------------||---------------------|
|---------------------||---------------------|
|---------------------||---------------------|
|-2--2--2--2--2-2-2-2-||-5--5--5--5--5-5-5-5-|
|-2--2--2--2--2-2-2-2-||-5--5--5--5--5-5-5-5-|
|-2--2--2--2--2-2-2-2-||-5--5--5--5--5-5-5-5-|
PM............................................

"trading profit fo pride but it's okay..."
|---------------------||------------------------|
|---------------------||------------------------|
|---------------------||-5--5--5--5--7--7--7--7-|
|-7--7--7--7--7-7-7-7-||-5--5--5--5--7--7--7--7-|
|-7--7--7--7--7-7-7-7-||-3--3--3--3--5--5--5--5-|
|-7--7--7--7--7-7-7-7-||------------------------|
PM....................

"everything's backwards in americana my way...."
|---------------------||---------------------|
|---------------------||---------------------|
|-9--9--9--9--9-9-9-9-||---------------------|
|-9--9--9--9--9-9-9-9-||-9--9--9--9--9-9-9-9-|
|-7--7--7--7--7-7-7-7-||-9--9--9--9--9-9-9-9-|
|---------------------||-9--9--9--9--9-9-9-9-|

					   "well f**k you!..."
|---------------------------||---------------------------|
|---------------------------||---------------------------|
|-9--7--9--12--12-14--14-12-||-9-------------------------|
|-9--7--9--12--12-14--14-12-||-9-------------------------|
|-7--5--7--10--10-12--12-10-||-7-------------------------|
|---------------------------||---------------------------|

"whoa-oh-oh.."                  "whoa-oh-oh..."
|-----------------------------||-----------------------------------|
|-----------------------------||-----------------------------------|
|---------------8--8-8--8-8-8-||-10--10-10--10-10-10-5--5-6--6-6-6-|
|-6--6-6--6-6-6-8--8-8--8-8-8-||-10--10-10--10-10-10-5--5-6--6-6-6-|
|-6--6-6--6-6-6-6--6-6--6-6-6-||-8---8--8---8--8--8--3--3-4--4-4-4-|
|-6--6-6--6-6-6---------------||-----------------------------------|

"whoa-oh-oh.."                 "well my dream has come true.."
|-----------------------------||---------------------------------------|
|-----------------------------||---------------------------------------|
|---------------8--8-8--8-8-8-||-10--10-10--10-10-10-8--8-10--10-10-10-|
|-6--6-6--6-6-6-8--8-8--8-8-8-||-10--10-10--10-10-10-8--8-10--10-10-10-|
|-6--6-6--6-6-6-6--6-6--6-6-6-||-8---8--8---8--8--8--6--6-8---8--8--8--|
|-6--6-6--6-6-6---------------||---------------------------------------|

"whoa-oh-oh.."                  "whoa-oh-oh..."
|-----------------------------||-----------------------------------|
|-----------------------------||-----------------------------------|
|---------------8--8-8--8-8-8-||-10--10-10--10-10-10-5--5-6--6-6-6-|
|-6--6-6--6-6-6-8--8-8--8-8-8-||-10--10-10--10-10-10-5--5-6--6-6-6-|
|-6--6-6--6-6-6-6--6-6--6-6-6-||-8---8--8---8--8--8--3--3-4--4-4-4-|
|-6--6-6--6-6-6---------------||-----------------------------------|

"whoa-oh-oh.."                 "my nightmare has come true.."
|-----------------------------||---------------------------------------|
|-----------------------------||---------------------------------------|
|---------------8--8-8--8-8-8-||-10--10-10--10-10-10-8--8-10--10-10-10-|
|-6--6-6--6-6-6-8--8-8--8-8-8-||-10--10-10--10-10-10-8--8-10--10-10-10-|
|-6--6-6--6-6-6-6--6-6--6-6-6-||-8---8--8---8--8--8--6--6-8---8--8--8--|
|-6--6-6--6-6-6---------------||---------------------------------------|


"yeah, it"s all coming true..."
|-----------------------------------||------------------------------------------|
|-----------------------------------||------------------------------------------|
|-13--13-13--13-13-13-8--8-8--8-8-8-||-10--10-10--10-10-10--10--10-10--10-10-10-|
|-13--13-13--13-13-13-8--8-8--8-8-8-||-10--10-10--10-10-10--10--10-10--10-10-10-|
|-11--11-11--11-11-11-6--6-6--6-6-6-||-8---8--8---8--8--8---8---8--8---8--8--8--|
|-----------------------------------||------------------------------------------|

"yeah, it"s all coming true..."
|-----------------------------------||------------------------------------------|
|-----------------------------------||------------------------------------------|
|-13--13-13--13-13-13-8--8-8--8-8-8-||-10--10--10--10--10--10-------------------|
|-13--13-13--13-13-13-8--8-8--8-8-8-||-10--10--10--10--10--10-------------------|
|-11--11-11--11-11-11-6--6-6--6-6-6-||-8---8---8---8---8---8--------------------|
|-----------------------------------||------------------------------------------|



Other Offspring songs

Smash guitar tab
Americana guitar tab
Vultures guitar tab