Lyrics Burger

Offspring - Smash guitar tab

Verse
|------------------------------------------------|
|------------------------------------------------|
|-10-10--10-10----6-6------------------5-5--5--5-| x2
|-10-10--10-10-10-6-6--6-8-8-x-8-x-8-x-5-5--5--5-|
|--8--8---8--8-10-4-4--6-8-8-x-8-x-8-x-3-3--3--3-|
|---------------8------4-6-6-x-6-x-6-x-----------|

|-------------------------------------|
|-------------------------------------|
|-10-10-10-10-------6-6-6-6--------5*-| x2, all muted, very quickly
|-10-10-10-10-10-10-6-6-6-6-6-6-8*-5*-|
|--8--8--8--8-10-10-4-4-4-4-6-6-8*-3*-|
|--------------8--8---------4-4-6*----|

Chorus
|--------------------------------------|
|--------------------------------------|
|----8*-6*-6-6-6-6-6-6-8-8----8*-6*-5*-|
|-6*-8*-6*-6-6-6-6-6-6-8-8-6*-8*-6*-5*-|
|-6*-6*-4*-4-4-4-4-4-4-6-6-6*-6*-4*-3*-|
|-4*-----------------------4*----------|

Riff 1
|-------------------|
|-------------------|
|-------------------| x4
|-------------------|
|-----3-3-4-3-3-----|
|-1-1-----------4-3-|

Verse
|------------------------------------------------|
|------------------------------------------------|
|-10-10--10-10----6-6------------------5-5--5--5-| x2
|-10-10--10-10-10-6-6--6-8-8-x-8-x-8-x-5-5--5--5-|
|--8--8---8--8-10-4-4--6-8-8-x-8-x-8-x-3-3--3--3-|
|---------------8------4-6-6-x-6-x-6-x-----------|

|-------------------------------------|
|-------------------------------------|
|-10-10-10-10-------6-6-6-6--------5*-| x2, all muted, very quickly
|-10-10-10-10-10-10-6-6-6-6-6-6-8*-5*-|
|--8--8--8--8-10-10-4-4-4-4-6-6-8*-3*-|
|--------------8--8---------4-4-6*----|

Chorus
|--------------------------------------|
|--------------------------------------|
|----8*-6*-6-6-6-6-6-6-8-8----8*-6*-5*-|
|-6*-8*-6*-6-6-6-6-6-6-8-8-6*-8*-6*-5*-|
|-6*-6*-4*-4-4-4-4-4-4-6-6-6*-6*-4*-3*-|
|-4*-----------------------4*----------|

Riff 1
|-------------------|
|-------------------|
|-------------------| x4
|-------------------|
|-----3-3-4-3-3-----|
|-1-1-----------4-3-|

Bridge
|-----------------------------------------|
|-----------------------------------------|
|-10-10~-----8-8~-----6-6~-----8-8~--9-9~-| x3
|-10-10~-----8-8~-----6-6~-----8-8~--9-9~-|
|--8--8~-----6-6~-----4-4~-----6-6~--7-7~-|
|-----------------------------------------|

Riff 1 - Guitar 2 - Comes in after 1st bridge
|-------------------|
|-------------------|
|-------------------| x8 all muted
|-------------------|
|-----3-3-4-3-3-----|
|-1-1-----------4-3-|

(both guitars)
|--------------------------------------------------|
|--------------------------------------------------|
|-10-10~-----8-8~-----6-6~-----8-8-------------8-8-|
|-10-10~-----8-8~-----6-6~-----8-8-8-10-10--10-8-8-|
|--8--8~-----6-6~-----4-4~-----6-6-8-10-10--10-6-6-|
|----------------------------------6--8--8---8-----|

Verse
|-------------------------------------|
|-------------------------------------|
|-10-10-10-10-------6-6-6-6--------5*-| x2, all muted, very quickly
|-10-10-10-10-10-10-6-6-6-6-6-6-8*-5*-|
|--8--8--8--8-10-10-4-4-4-4-6-6-8*-3*-|
|--------------8--8---------4-4-6*----|

Chorus
|--------------------------|
|--------------------------|
|----8*-6*-6-6-6-6-6-6-8-8-| x2
|-6*-8*-6*-6-6-6-6-6-6-8-8-|
|-6*-6*-4*-4-4-4-4-4-4-6-6-|
|-4*-----------------------|

|-----------------------------------------------------------------------------------------------|
|-----------------------------------------------------------------------------------------------|
|--------------8-8--8-8--8--6-6--6-6--6--6-6--6-6--8---------------8-8--8-8--8--6-6--6-6--6--5*-|
|-6-6--6-6--6--8-8--8-8--8--6-6--6-6--6--6-6--6-6--8--6-6--6-6--6--8-8--8-8--8--6-6--6-6--6--5*-|
|-6-6--6-6--6--6-6--6-6--6--4-4--4-4--4--4-4--4-4--6--6-6--6-6--6--6-6--6-6--6--4-4--4-4--6--3*-|
|-4-4--4-4--4-----------------------------------------4-4--4-4--4-------------------------------|

Ending
|-------------------|
|-------------------|
|-------------------| x3
|-------------------|
|-----3-3-4-3-3-----|
|-1-1-----------4-3-|

|---------------------|
|---------------------|
|---------------------|
|---------------------|
|-----3-3-4-3-3-------|
|-1-1-----------4-3-1-|



Other Offspring songs

Americana guitar tab
Americana guitar tab
Vultures guitar tab