Lyrics Burger

System of a Down - Prison Song guitar tab

Intro

D(------------------------------------------------------------------------------)
A(------------------------------------------------------------------------------)
F(------------------------------------------------------------------------------)2x
c(-0----0-1-3-2-0-1-3-2-0-1-3-2-0-1-8-8-7-8-------------------------------------)
G(-0----0-1-3-2-0-1-3-2-0-1-3-2-0-1-8-8-7-8-------------------------------------)
C(-0----0-1-3-2-0-1-3-2-0-1-3-2-0-1-8-8-7-8-------------------------------------)
[p.m.....................................]

Play Again

D(------------------------------------------------------------------------------)
A(------------------------------------------------------------------------------)
F(------------------------------------------------------------------------------)
c(-0-1-3-2-0-1-3-2-0-1-3-2----8-8-7-8-------------------------------------------)
G(-0-1-3-2-0-1-3-2-0-1-3-2----8-8-7-8-------------------------------------------)
C(-0-1-3-2-0-1-3-2-0-1-3-2----8-8-7-8-------------------------------------------)
[p.m...............................]

And Again (figure out order for intro, it's easy)

D------------------------------------------------------------------------------)
A------------------------------------------------------------------------------)
F------------------------------------------------------------------------------)
c-0-1-0-2-2-1-0--0-1-0-2-2-1-0--0-1-0-2-2-1-0--0-1-0-8-8-7-8-------------------)
G-0-1-0-2-2-1-0--0-1-0-2-2-1-0--0-1-0-2-2-1-0--0-1-0-8-8-7-8-------------------)
C-0-1-0-2-2-1-0--0-1-0-2-2-1-0--0-1-0-2-2-1-0--0-1-0-8-8-7-8-------------------)
[p.m.......................................................]

Verse (arificial harmonics)
D(-----------6-----6-----6-----6------10-------10------6-----6-----------------)
A(---------8---8-8---8-8---8-8---6-11----11-11----11-8---8-8---8---------------)
F(-----------------------------------------------------------------------------)
c(-----------------------------------------------------------------------------)
G(-----------------------------------------------------------------------------)
C(-----------------------------------------------------------------------------)

D(---6------10------6----------------------------------------------------------)
A(-8---8-11----11-8---8---7---7---7---7----------------------------------------)
F(--------------------------8---8---8------------------------------------------)
c(-----------------------------------------------------------------------------)
G(-----------------------------------------------------------------------------)
C(-----------------------------------------------------------------------------)
x x x x x x x

Chorus (repeat as needed add first part of intro when needed)

D(-----------------------------------------------------------------------------)
A(-----------------------------------------------------------------------------)
F(-----------------------------------------------------------------------------)
c(-0-1-0-2-2-1-0--0-1-0-2-2-1-0--0-1-0-2-2-1-0--0-1-0-8-8-7-8------------------)
G(-0-1-0-2-2-1-0--0-1-0-2-2-1-0--0-1-0-2-2-1-0--0-1-0-8-8-7-8------------------)
C(-0-1-0-2-2-1-0--0-1-0-2-2-1-0--0-1-0-2-2-1-0--0-1-0-8-8-7-8------------------)
[p.m.......................................................]

Bridge

D(-----------------------------------------------------------------------------)
A(-----3-2-----1---------------------------------------------------------------)
F(-0-3-------2---3-------------------------------------------------------------)
c(---------4------------------------------------8-8-7-8------------------------)
G(----------------------------------------------8-8-7-8------------------------)
C(------------------0-0-0-0-0-0-0-0-0-0-0-0-0-0-8-8-7-8------------------------)
x x x x

D(-----------------------------------------------------------------------------)
A(-----------------------------------------------------------------------------)
F(-----------------------------------------------------------------------------)
c(-0-0---0-0-0---0-0-0---0-0-0-8-8-7-8-----------------------------------------)
G(-0-0---0-0-0---0-0-0---0-0-0-8-8-7-8-----------------------------------------)
C(-0-0---0-0-0---0-0-0---0-0-0-8-8-7-8-----------------------------------------)

Ending ( or end of song throw the first part of bridge followed by this chord)

D(----3------------------------------------------------------------------------)
A(----4------------------------------------------------------------------------)
F(----5------------------------------------------------------------------------)
c(----5------------------------------------------------------------------------)
G(----3------------------------------------------------------------------------)
C(----3------------------------------------------------------------------------)



Other System of a Down songs

Sugar guitar tab
Chop Suey! guitar tab
Byob drum tab