Lyrics Burger

REM - Losing My Religion guitar tab

intro:                                v
----10---12---10------------------------------------------------------------
------------------10---10----10--10---8--10---------------------------------
-----------------------10----10--10--10--10---------------------------------
-----------------------10----10--10--10--10---------------------------------
----------------------------------------------------------------------------
----------------------------------------------------------------------------
                                            v
----12---10---12---10-------------------------------------------------------
------------------------10---10----10--10--10--10---------------------------
------------------------------9-----9---9---7---9---------------------------
-----------------------------10----10--10--10--10---------------------------
----------------------------------------------------------------------------
----------------------------------------------------------------------------

----12---10---12---10-------------------------------------------------------
------------------------10----8-----8---8---8--------------10--8------------
------------------------------7-----7---7---7-----------7---------9--7------
------------------------------9-----9---9---9----9--10----------------------
----------------------------------------------------------------------------
----------------------------------------------------------------------------

Oh, life...                              v
-----12---12---12---12---12---12---12---10---12-----------------------------
-----10---10---10---10---10---10---10---10---10-----------------------------
------9----9----9----9----9----9----9----9----9-----------------------------
-----10---10---10---10---10---10---10---10---10-----------------------------
----------------------------------------------------------------------------
----------------------------------------------------------------------------
                                         v
-----12---12---12---12---12---12---12---12---12-----------------------------
-----12---12---12---12---12---12---12---10---12-----------------------------
-----12---12---12---12---12---12---12---12---12-----------------------------
----------------------------------------------------------------------------
----------------------------------------------------------------------------
----------------------------------------------------------------------------

repeat the above bars until:

but now I've said too much...
-----13---------------15----------------------------------------------------
-----15---------------15----------------------------------------------------
-----14---------------16----------------------------------------------------
-----12---------------17----------------------------------------------------
----------------------------------------------------------------------------
----------------------------------------------------------------------------

then return to beginning

that neat little segue:
-----12--12--12--10--10--10--10--10--8--8--8--5--5--5--5--5-----------------
----------------------------------------------------------------------------
----------------------------------------------------------------------------
----------------------------------------------------------------------------
----------------------------------------------------------------------------
----------------------------------------------------------------------------

outro:   x           x                   x           x
--------12--12--12--12--12--12--12--12--12--12--12--12--12--12--12--12------
----------------------------------------------------------------------------
----------------------------------------------------------------------------
----------------------------------------------------------------------------
----------------------------------------------------------------------------
----------------------------------------------------------------------------

--------12--10----------10--------------------------------------------------
----------------13--10------13--10--13--10wwwww-----------------------------
----------------------------------------------------------------------------
----------------------------------------------------------------------------
----------------------------------------------------------------------------
----------------------------------------------------------------------------

Legend:

    v  look here, it's not as repetitive as it looks
    x  play a bit louder (accent)



Other REM songs

Losing My Religion guitar tab