Lyrics Burger

Nirvana - Smells Like Teen Spirit guitar tab

Standard tuning
b=bend
x=rake strings

e|-----------------------------------|
B|-----------------------------------|
G|--------------3-3---------------6-6|
D|3-3-3-X-X-X-X-3-3-6-6-6-X-X-X-X-6-6|
A|3-3-3-X-X-X-X-1-1-6-6-6-X-X-X-X-4-4|
E|1-1-1-X-X-X-X-----4-4-4-X-X-X-X----|
Play twice clean
Play four times distorted

Verse
e|------|\
B|-6---6| \
G|5---5-|  \repeat until pre-chorus
D|------|  /
A|------| /
E|------|/

Pre-Chorus (distorted)
e|----------------|\
B|---6---6---6---6| \
G|5-5-5-5-5-5-5-5-|  \play 2x
D|----------------|  /
A|----------------| /
E|----------------|/

Bridge (disorted)
e|--------------------------|\
B|--------------------------| \
G|----------3b--------------|  \play 2x
D|3--2-3-4-4--3--2-3-8-8-6-6|  /
A|3--2-3-4-4--3--2-3-8-8-6-6| /
E|1--0-1-2-2--1--0-1-6-6-4-4|/

Solo
e|-----------------------------|
B|-4-6-4-b4-2-1-2-1------------|
G|5---1------------3-1-3-b3-1-0|
D|-----------------------------|
A|-----------------------------|
E|-----------------------------|

e|-----------------------------|
B|-4-6-4-b4-2-1-2-1------------|
G|5---1------------3-1-3-b3-1-0|
D|-----------------------------|
A|-----------------------------|
E|-----------------------------|
e|--------------------------------|
B|1-0-1-0-1-0-1-0-1-0-1-0-1-0-1-0-|
G|---------------3---------------3|
D|--------------------------------|
A|--------------------------------|
E|--------------------------------|

e|--------------------------------|
B|1-0-1-0-1-0-1-0-1-0-1-0-1-0-1-0-|
G|---------------3---------------3|
D|--------------------------------|
A|--------------------------------|
E|--------------------------------|

Verse (hold the last note of the solo)
Pre-Chorus
Chorus
Main Riff x2