Lyrics Burger

System of a Down - Chop Suey! guitar tab

-----------------------------------------------------------------------
-----------------------------------------------------------------------
-5---/7----4---2-------------------------------------------------------
-7----9----5---3-------------------------------------------------------
-0----0----0---0-------------------------------------------------------
-----------------------------------------------------------------------
intro (figure out strumming)


---------------------------------------------------------------------------------
---------------------------------------------------------------------------------
---------------------------------------------------------------------------------
---------------------------------------------------------------------------------
-8-7-8-7-8-7-8--7-6-7-6-7-6-7-6---10-9-10-9-10-9-10-9---12-11-12-11-12-11-12-11--
-8-7-8-7-8-7-8--7-6-7-6-7-6-7-6---10-9-10-9-10-9-10-9---12-11-12-11-12-11-12-11--
main riff

---------------------------------------------------------------
---------------------------------------------------------------
---------------------------------------------------------------
---------------------------------------------------------------
---------------------------------------------------------------
-8-8-8-8-8-8-7-7-7-7-7-7-7-10-10-10-10-10-10-12-12-12-12-12-12-

---------------------------------------------------------------
---------------------------------------------------------------
---------------------------------------------------------------
---------------------------------------------------------------
-8-7-------8-7-8-7-8-7-8-7-8-7---------------------------------
-8-7-------8-7-8-7-8-7-8-7-8-7---------------------------------
verse ("wake up")


---------------------------------------------------------------
---------------------------------------------------------------
-5----------7-----------4------------2-------------------------
---7-7-7-7----9-9-9-9-----5-5-5-5-5----3-3-3-3-3---------------
---------------------------------------------------------------
---------------------------------------------------------------
chorus (picking is kinda slow)

---------------------------------------------------------------
---------------------------------------------------------------
-2------5------------------------------------------------------
-2--3---5--3---------------------------------------------------
-0--3---3--3---------------------------------------------------
----3------3---------------------------------------------------
bridge ("why have you forsaken me?")



Other System of a Down songs

Sugar guitar tab
Prison Song guitar tab
Byob drum tab