Lyrics Burger

Green Day - Maria guitar tab

Intro/Verse:

She smashed the radio with the board of education...

e-----------------------|
B-----------------------|
G--777------------------|
D--777-7----------------|
A--555-7-000000000000000|
E------5----------------|



Pre-chorus:

Turn up the flame, step on the gas...

e------------------|
B------------------|
G--------99999999--|
D--7/66--99999999--|
A--7/66--77777777--|
E--5/44------------|



Chorus:

Maria, Maria, Maria, where did you go?...

e|-------------------------------------------------------|
B|-------------------------------------------------------|
G|---------------77777777------------77777777------------|
D|---------------77777777--77777777--77777777--77777777--|
A|---------------55555555--77777777--55555555--77777777--|
E|--/pickslide-------------55555555------------55555555--|
          
Chorus continued:

e|----------------------------------------|
B|----------------------------------------|
G|--77777777------------9999999999999999--|
D|--77777777--77777777--9999999999999999--|
A|--55555555--77777777--7777777777777777--|
E|------------55555555--------------------|




Bridge:

Be careful what your offering...

e----------------|
B----------------|  For this part
G-----99----99---|  turn your distortion
D--99-99-99-99---|  down slightly
A--99-77-99-77---|
E--77-77-77-77---|



Solo:


e|-2---3---5-------|-----5----5-----|
B|-3---3---3-------|---5----5-----5-|
G|---------------7b|------7b----7b--|
D|-----------------|----------------|
A|-----------------|----------------|
E|-----------------|----------------| X3
 

e|-4-----4-5---5-7-|---5---4------x-|
B|-5-----5-5---5-5-|---5---5------x-|
G|-----------------|----------------|
D|-----------------|----------------|
A|-----------------|----------------|
E|-----------------|----------------|

        
e|-4-----4-5---5-7-|---5---4---0----|-5~---
B|-5-----5-5---5-5-|---5---5---5----|------
G|-----------------|----------------|------
D|-----------------|----------------|------
A|-----------------|----------------|------
E|-----------------|----------------|------



Other Green Day songs

Holiday drum tab
Holiday keyboard tab