Lyrics Burger

Offspring - Vultures guitar tab

 Riff A

E||------------------------|-------------------------|
B||------------------------|-------------------------|
G||------------------------|-------------------------|
D||-------2----------2-----|-----2-------------------|
A||--0-------0--3-------3--|--2-----2----------2-----|
E||------------------------|-----------0----0-----3--|


 Riff B
                                                      
                         
---------------------------|-------------------------|
---------------------------|-------------------------|
--7----7--7--10----10--10--|--9--9--9----------------|
--7----7--7--10----10--10--|--9--9--9--7----7--7--7--|
--5----5--5--8-----8---8---|--7--7--7--7----7--7--7--|
---------------------------|-----------5----5--5--5--|


                                                      
---------------------------|-------------------------|
---------------------------|-------------------------|
--7----7--7--10----10--10--|--9--9--9----------------|
--7----7--7--10----10--10--|--9--9--9--7----7--7--7--|
--5----5--5--8-----8---8---|--7--7--7--7----7--7--7--|
---------------------------|-----------5----5--5--5--|


                                                      
---------------------------|-------------------------|
---------------------------|-------------------------|
--7----7--7--10----10--10--|--9--9--9----------------|
--7----7--7--10----10--10--|--9--9--9--7----7--7--7--|
--5----5--5--8-----8---8---|--7--7--7--7----7--7--7--|
---------------------------|-----------5----5--5--5--|


                                                      
                        
--------------------------|--------------------------|
--------------------------|--------------------------|
--9--9--9--9--9--9--9--9--|--9--9--9--9--9--9--9--9--|
--9--9--9--9--9--9--9--9--|--9--9--9--9--9--9--9--9--|
--7--7--7--7--7--7--7--7--|--7--7--7--7--7--7--7--7--|
--------------------------|--0--0--0--0--0--0--0--0--|
<-- this 0's 
                                                      
    are optional.

 Riff C
                                                      
                    
------------------------|------------------------|------------------------|
------------------------|------------------------|------------------------|
--2--2----2--5--5----5--|------------------------|--2--2----2--5--5----5--|
--2--2----2--5--5----5--|--2--2----2----2--2--2--|--2--2----2--5--5----5--|
--0--0----0--3--3----3--|--2--2----2----2--2--2--|--0--0----0--3--3----3--|
------------------------|--0--0----0----0--0--3--|------------------------|


                                                      
                      
------------------------|------------------------|------------------------|
------------------------|------------------------|------------------------|
------------------------|--2--2----2--5--5----5--|------------------------|
--2--2----2----2--2--2--|--2--2----2--5--5----5--|--2--2----2----2--2--2--|
--2--2----2----2--2--2--|--0--0----0--3--3----3--|--2--2----2----2--2--2--|
--0--0----0----0--0--3--|------------------------|--0--0----0----0--0--3--|


                            
--------------------------|--------------------------|
--------------------------|--------------------------|
--7--7--7--7--7--7--7--7--|--9--9--9--9--9--9--9--9--|
--7--7--7--7--7--7--7--7--|--9--9--9--9--9--9--9--9--|
--5--5--5--5--5--5--5--5--|--7--7--7--7--7--7--7--7--|
--------------------------|--------------------------|


 Solo (while Riff A plays)
                                                      
                
---------------------|-----------------------|---------------------|
---------------------|-----------------------|---------------------|
--2------5--------5--|--4h-5p-4--------------|--2------5--------5--|
---------------------|-----------5----2------|---------------------|
---------------------|-----------------------|---------------------|
---------------------|-----------------------|---------------------|


                                                      
                 
-------------------------|---------------------|-----------------------|
-------------------------|---------------------|-----------------------|
--/7p-5--5--4----5h-4-0--|--2------5--------5--|--4--5--4--------------|
-------------------------|---------------------|-----------5----2------|
-------------------------|---------------------|-----------------------|
-------------------------|---------------------|-----------------------|


                                                 
---------------------|-------------------------|
---------------------|------------5---3--------|
--2------5--------5--|--/7p-5--4---------5--4--|
---------------------|-------------------------|
---------------------|-------------------------|
---------------------|-------------------------|

                                                      
       
 Ending

--------------------------|
--------------------------|
--2-----------------------|
--2-----------------------|
--0-----------------------|
--------------------------|


 Song structure:

Riff A 12 times (1st verse)
Riff B 1 time   (pre-chorus)
Riff C 1 time   (chorus)
Riff A 6 times  (2nd verse)
Riff B 1 time   (pre-chorus)
Riff C 2 times  (chorus)
Riff A 4 times  (solo)
Riff B 1 time   (pre-chorus)
Riff C 2 times  (chorus)    
Ending



Other Offspring songs

Smash guitar tab
Americana guitar tab
Americana guitar tab