Lyrics Burger

Dire Straits - Money For Nothing guitar tab

Intro:
e|-----------------------------------------------|
B|-----------6-----------------------------------|
G|---7-7p5-7---7p5-5-3-0--3--3\5-3-0-3\5-5\3-0---|
D|---5-5---5---5---5-3-0--3--3\5-3-0-3\5-5\3-0---|
A|-----------------------------------------------|
E|-----------------------------------------------|

e|-----------------------------------------------|
B|---------------8-------------------------------|
G|---7-7p5---5h7---7-7p5-----0h5--3--3\5-0-------|
D|---5-5---8-------------8p5-0h5--3--3\5-0-3\5-5-|
A|-----------------------------------------------|
E|-----------------------------------------------|

Verses:
e|-----------------------------------------------|
B|----------6------------------------------------|
G|---7~-5h7---7p5-5/3-0--0--3\5-0-3\5-5\3-0------|
D|---5~-5-----5---5/3-0--0--3\5-0-3\5-5\3-0------|
A|-----------------------------------------------|
E|-----------------------------------------------|

e|-----------------------------------------------|
B|----------6------------------------------------|
G|---7~-5h7---7p5-5/3-0--0--3\5-0----------------|
D|---5~-5-----5---5/3-0--0--3\5-0-3\5-5~~--------|
A|-----------------------------------------------|
E|-----------------------------------------------|

Chorus:
e|-----------------------------------------------|
B|-----------------------------------------------|
G|---3----3-3--3-3-3-3------3----3-3-3\5-5-5-5---|
D|---1--1-1-1--3-3-3-3p1----1--1-1-1-1\3-3-3-3---|
A|-----------------------------------------------|
E|-----------------------------------------------|
     

e|-----------------------------------------------|
B|-----------------------------------------------|
G|-\7----7-7--7----7-5--5----5-5-5\7-7-7\9~-9h11-|
D|-\5--5-5-5--5--5-5-5--5--5-5-5-5\7-7-7\9~-9h11-|
A|-----------------------------------------------|
E|-----------------------------------------------|

Outro:
e|-----------------------------------------------|
B|-----------6-----------------------------------|
G|---7-7p5-7---7p5-5-3-0--3b5r3p0-3b5r3p0--------|
D|---5-5---5---5---5-3-0--3b5r3p0-3b5r3p0--3\5-5-|
A|-----------------------------------------------|
E|-----------------------------------------------|



Other Dire Straits songs

Telegraph Road guitar tab
Private Investigations guitar tab