Lyrics Burger

System of a Down - Sugar guitar tab

-------------------
-------------------
-------------------
0-7-6-5--0-7-6-5---
0-7-6-5--0-7-6-5---
0-7-6-5--0-7-6-5---

---13--13-12-------10----10
10-----------13-10-----------
-----------------------------
-----------------------------
-----------------------------
-----------------------------

-----13-------13--12-----------10----10----10----10----
-10-------------------13v---10----10----10----10----10-
-------------------------------------------------------
-------------------------------------------------------
-------------------------------------------------------
-------------------------------------------------------
I sit....
-----------------------------
-----------------------------
-----------------------------
1---1-0------1---1-0---------
1---1-0------1---1-0---------
1---1-0------1---1-0---------

p.m.... p.m
-------------------------------------------------
-------------------------------------------------
-------------------------------------------------
1--12-1-0-1-0--12--0-0-1----------------------- gradually
1--12-1-0-1-0--12--0-0-1----------------------- speed up
1--12-1-0-1-0--12--0-0-1-----------------------

p.m.............
-------------------------
-------------------------
-------------------------
0-7-6-5--0-7-6-5--------- gradually speed up
0-7-6-5--0-7-6-5--------- and release palm mute
0-7-6-5--0-7-6-5---------



Other System of a Down songs

Chop Suey! guitar tab
Prison Song guitar tab
Byob drum tab